Guitar notes for ‘En Iniya Pon Nilave’

I found the guitar chords for prelude at the beginning of the song ‘En Iniya Pon Nilave’ song by Iliyaraja

Notes are as follows
EN INIYA PON NILAVAE

    C   D Eb D (twice)
E---------------------------------
B------3-4-3----------------------
G---5-----------------------------
D---------------------------------
    C Eb D Eb   -  C  F  E  F
E---------------------------------
B-----4--3--4---------6--5--6-----
G---5--------------5--------------
D---------------------------------
    C Eb D C       (Bb)  (Ab)
E--------------------------------
B-----4--3-----------------------
G---5-------5------3-------------
D--------------------------4-----

I am having a very hard time to getting to play these very simple tunes right, probably a lot more practice will help me in getting it right.

Song Video

This song is a classical masterpiece, only now ever since I started with guitar, I am able to listen to and relish the beauty of iliyaraja’s music.

I would also suggest ‘Iliaya Nila’ http://www.youtube.com/watch?v=owiXDr1xQ8Y , this song is classic too, the guitar strip in the middle is just too good.

Reference Site: http://www.indianguitartabs.com/showthread.php?t=8540

2 Responses to “Guitar notes for ‘En Iniya Pon Nilave’”

  1. Suresh Says:

    The best part is now you realize the beauty of Illayaraja music.


  2. ashwin Says:

    mokka…..sir…neenga


Leave a Reply

XHTML: You can use these tags: <a href="" title=""> <abbr title=""> <acronym title=""> <b> <blockquote cite=""> <cite> <code> <del datetime=""> <em> <i> <q cite=""> <strike> <strong>